Shiva Info

Community Shiva Information

4/21/17

We regret to announce the passing of our member, Joseph Silber A'H, father of our member Richard Silber.

Burial took place this morning at Har Menuchot in Jerusalem.

Richard will continue sitting on Monday April 24 through Thursday morning April 27 at  601 Knollwood Drive WH

Shacharis:    6:50 AM  Thursday, 4/27

Mincha/ Maariv    7:30 PM Wednesday, 4/26

---------------------------------------------------------------------------------------------4/26/17

We regret to announce the passing of Efrom Lebow, A"H, father of our member Wendy Riback.

The funeral will take place Thursday, April 27th at Gutterman's Funeral Home in Rockville Centre, at 2:00 pm. Burial will follow at Beth David Cemetery in Elmont.

Shiva will be observed at the Riback home, 766 Evergreen Drive thru Wednesday morning May 3rd.

Minyanim will be as follows:

Shacharis Friday and Monday-Wednesday: 7:00 AM

Sunday Shacharis at 8:30 AM

Mincha/Maariv Thursday and Sunday thru Tuesday at 7:30 PM. 

The family kindly requests no visitors between the hours of 12:30-1:30 PM, 6:00-7:00 PM and after 10:00 PM

----------------------------------------------------------------------------------------------------

We regret to announce the passing of Nahum Gordon, Nachum Leib ben Yitzchak, A"H, father our member Dr. Michael Gordon.

The funeral will take place today, April 20th at 3;30 pm at the Boulevard-Riverside Chapel, 1450 Broadway in Hewlett.  The burial will be in Eretz Yisroel at Eretz Hachayim Cemetery in Beit Shemesh on Friday afternoon.

Shiva will be observed at 892 Westminster Road, Woodmere, NY from Monday morning through Thursday morning.

Shacharit: 7:00 am

Mincha/Maariv: 7:30 pm

 

May the mourners be comforted among the mourners of Tziyon and Yerushalayim.

 

 

 

 

 

 

 Shiva has concluded

 

3/29/17

 

We regret to announce the passing of Bernard David Altman, A"H, father of our member Annalee Ickowics.

3/20/17

We regret to inform you of the passing of our member, Dr Morris Ehrenreich, husband of Doris, father of Josh, Danny & Michael.

------------------------------------------------------------------------------------------------3/14/17

We regret to announce the passing of Igor (Yisroel) Shakhnovich, brother of Natasha Srulowitz

-------------------------------------------------------------------------------------------------------------------------------------------------

3/14/17

We regret to inform you of the passing of Mrs. Eunice Spielman, a"h, beloved mother of our member, Bruce Zarett

------------------------------------------------------------------------------------------------3/6/17

We regret to announce the passing of our former member Fred Zauder, A"H, father of our member Deslie Paneth.

------------------------------------------------------------​​​​​

3/6/17

We regret to announce the passing of  Shulim Jonas, A"H, father of our member Sharon Wiesel.

----------------------------------------------------------------------------------------------------

2/25/17

We regret to announce the passing of Geoffrey Heisler, A"H, father of our member Tzippora Halpert.

------------------------------------------------------------------------------------------

2/20/17

We regret to announce the passing of Martin Davis, A"H, brother of our members Gale Teitelbaum and Rabbi Kenneth Davis.

------------------------------------------------------------------------------------------

2/19/17

We regret to announce the passing of our member Stella Orlofsky, A"H, mother of our members Bruce and Mitchel Orlofsky.

------------------------------------------------------------------------------------------

2/15/17

We regret to announce the passing of Grace Levy, A"H, mother of our member Miriam Gordon.

----------------------------------------------------------------------------------------------------

2/5/17

We regret to announce the passing of  Rabbi Nathan Kapner, A"H, father of our office manager Wendy Pusateri

2/2/17

We regret to inform you of the passing of Elaine Baruch, A"H, mother of our members Michael Baruch and Jeffrey Baruch. 

------------------------------------------------------------------------------------------------

1/30/17

We regret to announce the passing of  Sidney Mochan, A"H, father of our member Karen Liss.

------------------------------------------------------------------------------------------

1/27/17

We regret to announce the passing of Max Koenigson, A"H father of our member Chavi Stern

------------------------------------------------------------------------------------------

1/27/17

We regret to announce the passing of Jeri Turkel, A"H, sister of our member Moish Smulevitz.

----------------------------------------------------------------------------------------------------

1/16/17

We regret to announce the passing of our member Naftali Teitelbaum, A"H, husband of our member Gale Teitelbaum.

------------------------------------------------------------------------------------------1/12/17

We regret to announce the passing of Esther Mochan, A"H, mother of our member Karen Liss.

----------------------------------------------------------------------------------------------------

1/10/17

We regret to announce the passing of  Deborah Neumark, A"H, sister of our member Naomi Stemp.

----------------------------------------------------------------------------------------------------

1/9/2017

We regret to announce the passing of Rebbetzin Ruth Schonfeld A”H, beloved mother of our member Tammy Koppel and wife of Rabbi Fabian Schonfeld.

---------------------------------------------------------------------------------------------

1/8/17

We regret to announce the passing of our member Toby Jacoby, A"H.

---------------------------------------------------------------------------------------------

1/3/2017

We regret to announce the passing of Ethel Rumelt A'H,  mother of our member Owen Rumelt.

-------------------------------------------------------------------------------------------------------------------------------------------------

12/24

We regret to announce the passing of Doris Kushner, A"H, mother of our member Tsvi Kushner.

------------------------------------------------------------------------------------------------

12/17/16

We regret to announce the passing of Martha Geller, A"H, mother of our member Morse Geller.  

-------------------------------------------------------------------------------------------------------------------------------------------------

12/13/16

 

We regret to announce the passing of  Liane Teitelbaum, A"H, mother of our member Marc Teitelbaum.

-------------------------------------------------------------------------------------------------------------------------------------------------

 

We regret to announce the passing of Renee Pass, A"H, mother of our member Jackie Cohen.

-----------------------------------------------------------------------------------------------------------------------------------

We regret to announce the passing of our member Sally Dena Appel. A"H, mother of our members Lorraine Hill and Helen Schiowitz.

----------------------------------------------------------------------------------------------------------------------------------------------------

We regret to announce the passing of Frances Romanoff, A"H, mother of our member Andy Romanoff

----------------------------------------------------------------------------------------------------------------------------------------------------

We regret to announce the passing of  Rochelle Pearl, A"H, mother of our member Marilyn Guenoun.

----------------------------------------------------------------------------------------------------------------------------------------------------

We regret to announce the passing of Bernice Lev, A"H, mother of our member Daniel Lev.

-------------------------------------------------------------------------------------------------------------------------------------------------

We regret to announce the passing of our member Eli Feit, A"H.

-------------------------------------------------------------------------------------------------------------------------------------------------

We regret to announce the passing of Rabbi David Halpern, A"H, father of our member Risa Halpern Weinstein.

-------------------------------------------------------------------------------------------------------------------------------------------------

 

We regret to announce the passing of our member Robert Materman, A"H, husband of Tania Materman.

-------------------------------------------------------------------------------------------------------------------------------------------------

 

We regret to announce the passing of  Hannah Braun, A"H, sister of our member Judy Wasserman.

-------------------------------------------------------------------------------------------------------------------------------------------------

 

 

We regret to announce the passing of Rabbi Dr. Simon L. Eckstein, father of our member Beryl Eckstein.

--------------------------------------------------------------------------------------------------------------------------------------------

 

9/25/16

We regret to announce the passing of Caryn Pollak, A"H, daughter of our members Chaya and Dr. Lester Pollak.

--------------------------------------------------------------------------------------------------------------------------------------------

 

9/24/16

We regret to announce the passing of Harvey Oppenheim, A"H, father of our member Moshe Oppenheim.

----------------------------------------------------------------------------------------------------

9/20/16

We regret to announce the passing of former longtime member, Pearl Hofman A'H.

----------------------------------------------------------------------------------------------------

9/13/16

We regret to announce the passing of Florence Klein A'h, mother of our member, Leo Klein.

----------------------------------------------------------------------------------------------------

9/4/16

We regret to announce the passing of  Bertram Kaplan, A"H, brother of our member Diane Rosenthal.

____________________________________________________________________________________________________________________

8/19/16

We regret to announce the passing of Gerald Edelman A'H, father of our member, Morris Edelman.

______________________________________________________________________________________

8/16/16

We regret to announce the passing of Jean Turk A'H,  mother of our member Michael Turk.

______________________________________________________________________________________

8/10/16

We regret to announce the passing of former longtime member, Pearl Hofman A'H.We regret to announce the passing of our member, Dr. Aviva Herschman, A”H, wife of Dr. Hesh Herschman and mother of Yehuda, Miriam, Avi and Simcha.

______________________________________________________________________________________ 

7/15/16

We regret to announce the passing of  our member Moshe Rieder, A'H, son of our member, Abe Rieder , brother of our members, Malke Joshua & Benjamin Rieder and brother to Miriam Simon.

____________________________________________________________________________________

7/10/16

We regret to announce the passing of Sidney Dratch, A"H, father of our member Rabbi Mark Dratch.

______________________________________________________________________________________

7/7/16

We regret to announce the passing of  Shimon Lichtman, A"H, father of our member David Lichtman.

____________________________________________________________________________________

7/5/16

We regret to announce the passing of Mrs. Pearl Nayberg, A"H, mother of our late member Robert Nayberg, A"H.

______________________________________________________________________________________

7/5/16

 

We regret to announce the passing of  Rabbi Maurice Lamm, A"H,  brother of Miriam Auslander. 

_______________________________________________________________________________________

7/4/16

 

We regret to announce the passing of Albert Kaminsky, A"H, father of our member Hillel Kaminsky.

______________________________________________________________________________________

 

 

5/29/16

We regret to announce the passing of Beverly Ben-Har, A"H, mother of our member Leora Pearlman

______________________________________________________________________________________

 

5/17/16

We regret to announce the passing of Aryeh Natan Glassman, A'H, son of our members Rebecca & Kenneth  Glassman, brother of  Pamela & David Glassman.

______________________________________________________________________________________

5/17/16

We regret to announce the passing of our member, Herb Scheer, A'H, and Steve husband of Judy, father of Andrew and Steven.
______________________________________________________________________________________

4/6/16

We regret to announce the passing of our member Bruce Wenger, A'H, husband of our member Sharon Wenger and father of Jonathan.


3/11/16

We regret to announce the passing of Helene Woloch, A"H, mother of our member Miriam Meyer.


3/6/16

We regret to announce the passing of Helene Ganeles, A"H, mother of our member Corky Milworn.


3/5/16

We regret to announce the passing of Herman Strauch, A"H, brother of our member Baruch Strauch.


2/27/16

We regret to announce the passing of  Richard Nenner, A"H, father of our member David Nenner.

 


2/26/16

We regret to announce the passing of  Renee Wexler, A"H, mother of our member Leslie Rosenthal.

 


2/18/16

We regret to announce the passing of Joseph Rosenfeld, A"H, father of Faigy Feder.


1/26/2016

We regret to announce the passing of Julius Glogower A'H, father of our member, Gary Glogower.


1/24/2016

We regret to announce the passing of Chana Leah Fried A'H, mother of our member, Esther Africk.


12/29/2015

We regret to announce the passing of Erwin Stern A'H, brother of our member, Elana Bedziner.


12/29/2015

 
We regret to announce the passing of Herman Sussman, A"H, father of our member Sharon Lovy.
 

12/28/2015

We regret to inform you of the passing of Mrs. Yoli Sojcher, other of our member Michael Sojcher.
 

12/23/2015:

We regret to announce the passing of Joseph Fried, A"H, father of our member Esther Africk.
 


11-21-2015:

We regret to announce the passing of our member Adriane Hausner, A"H.

 


11-15-2015:

We regret to announce the passing of Rachamim Massihesraelian, A"H, brother of our member Kamran Massihesraelian.


11-11-2015:

We regret to announce the passing of our member Emmett Saxe, A"H, son of our member Ben Saxe.


11-10-2015:

We regret to announce the passing of Bayla Solow, A"H, mother of our member Debbie Ginsberg.


10-22-2015:

We regret to announce the passing of our member Barbara Shamir, A"H, sister of our member Larry Boord.


10-11-2015:

We regret to announce the passing of our member David Rayman, A"H, husband of our member Phyllis Raymond.


10-06-2015:

We regret to announce the passing of Irving Tuchman, A"H, father of our member Frieda Oelbaum.


09-22-2015:

We regret to announce the passing of Martin Kanowitz A"H, brother of our member Howard Kanowitz.


09-21-2015:

We regret to announce the passing of Zoli Brenner A"H, father of our member Chanie Ginsburg.


09-17-2015:

We regret to announce the passing of Harriet Schubin Hughes A"H, mother of our member Naomi Greenberg.


09-05-2015:

We regret to announce the passing of Linda Weiss A"H, mother of our member Shlomo Weiss.


09-03-2015:

We regret to inform you of the passing of Saul Schulman A"H, brother of our member Roslyn Bierig.


08-20-2015:

We regret to inform you of the passing of Ruth Metzger A"H, sister of our member Lou Benjamin.


08-09-2015:

We regret to inform you of the passing of David Edelstein A"H, father of our member Ivy Yizhaky.


08-05-2015:

We regret to inform you of the passing of our member, Leon Hankoff A'H, husband of our member Selma Hankoff.


07-28-2015:

We regret to announce the passing of Sylvia Coleman, A"H, mother of our member Zehava Schechter-Richter.


07-27-2015:

We regret to announce the passing of our member Michael Adler, A"H, husband of our member Dafna Adler.


07-22-2015:

We regret to announce the passing of our member Bluma Gruber, A"H, mother of our members Henny Smith and Chana Stein.


07-19-2015:

We regret to announce the passing of Gizella Schwartz, A"H, mother of our member Marti Wilensky and her sister Judy Berdugo.


07-17-2015:

We regret to announce the passing of Carol Brun-Kestler, A'H, mother of our member Rabbi Aharon Brun-Kestler.


07-08-2015:

We regret to announce the passing of Martin Miller A'H father of our member Barbara Edelstein.


06-30-2015:

We regret to announce the passing of Shmuel Haimson A'H brother of our member Ephraim Haimson.


06-26-2015:

We regret to announce the passing of our member Al Stiefel, A'H husband of Alice Stiefel.
 

Sun, 30 April 2017 4 Iyyar 5777